Outlaw Guitar Lesson 猫でも弾ける?外道ギター練習法

Lesson 4

男は黙ってパワーコード

なかやまきんに君のようにパワフルに。
2本の指だけで1曲弾ききる潔さ、男らしさをあなたにも!
もちろん女性でもOKです

サイドギターの美学

リードギターはハードロック・ヘビーメタルの花形ポジションですが、ツインギター構成のバンドでサイドギターに徹する男たちも居ます。
パワーコードでひたすら重厚なリズムを刻み、楽曲を支えるサイドギターなら、1曲通して弾く練習にもってこいですな。
楽曲のコード進行や構成を把握するのにもいいかも。

というわけで、世界一かっこういい(と思う)サイドギターのレジェンド、ルドルフ・シェンカー、そしてそのスコーピオンズの楽曲で練習しようぜ。

Rock You Like A Hurricane / Scorpions

イントロ

  Em        G      Am    C   D      Em        G      Am    C   D      Em        G      Am    C   D      Em        G      Am    C   D
1|----------------|----------------|----------------|----------------|----------------|----------------|----------------|----------------|
2|----------------|----------------|----------------|----------------|----------------|----------------|----------------|----------------|
3|9-9-9-----------|------5---7-7---|9-9-9-----------|------5---7-7---|9-9-9-----------|------5---7-7---|9-9-9-----------|------5---7-7---|
4|9-9-9-----5-5---|7-7---5---7-7---|9-9-9-----5-5---|7-7---5---7-7---|9-9-9-----5-5---|7-7---5---7-7---|9-9-9-----5-5---|7-7---5---7-7---|
5|7-7-7-----5-5---|7-7---3---5-5---|7-7-7-----5-5---|7-7---3---5-5---|7-7-7-----5-5---|7-7---3---5-5---|7-7-7-----5-5---|7-7---3---5-5---|
6|----------3-3---|5-5-------------|----------3-3---|5-5-------------|----------3-3---|5-5-------------|----------3-3---|5-5-------------|


  Em        G      Am    C   D      Em        G      Am    C   D      Em        G      Am    C   D      Em        G      Am    C   D
1|----------------|----------------|----------------|----------------|----------------|----------------|----------------|----------------|----------------|
2|----------------|----------------|----------------|----------------|----------------|----------------|----------------|----------------|----------------|
3|9-9-9-----------|------5---7-7---|9-9-9-----------|------5---7-7---|9-9-9-----------|------5---7-7---|9-9-9-----------|------5---7-7---|----------------|
4|9-9-9-----5-5---|7-7---5---7-7---|9-9-9-----5-5---|7-7---5---7-7---|9-9-9-----5-5---|7-7---5---7-7---|9-9-9-----5-5---|7-7---5---7-7---|----------------|
5|7-7-7-----5-5---|7-7---3---5-5---|7-7-7-----5-5---|7-7---3---5-5---|7-7-7-----5-5---|7-7---3---5-5---|7-7-7-----5-5---|7-7---3---5-5---|----------------|
6|----------3-3---|5-5-------------|----------3-3---|5-5-------------|----------3-3---|5-5-------------|----------3-3---|5-5-------------|----------------|

これこそシンプル・イズ・ベストと思うリフですね。特に奇をてらうこともなく、ド直球の男前なゴリゴリのハードロックリフと思います。
パワーコードですが3本弦でルートオクターブ上の音もあります。
人差し指・薬指・小指で丁寧に押弦するもよし、ルートは人差し指でほかは薬指を寝かせたセーハでも、お好きな押さえ方でどうぞ。

曲を印象づける大事な部分がギターに任されていますので、リズムを丁寧に刻むことには気をつけつつ、気分を上げてお客さんにドヤ顔するイメージで力強く弾いてみましょう。
リードギターのソロパートが入ってきたら、ちょっとだけ遠慮気味に弾いてリードギターを目立たせてあげましょう。
イントロ終わりでDをジャーンて伸ばしてAメロにつなげましょう。

Aメロ 1回目

  C     Em         C     Em  D      C     Em         C     D          C     Em         C     Em  D      C     Em         C     D
1|----------------|----------------|----------------|----------------|----------------|----------------|----------------|----------------|
2|----------------|----------------|----------------|----------------|----------------|----------------|----------------|----------------|
3|----------------|----------------|----------------|----------------|----------------|----------------|----------------|----------------|
4|5-5-5-9-9-9-9-9-|5-5-5-9-9-7-7-7-|5-5-5-9-9-9-9-9-|5-5-5-7-7-7-7-7-|5-5-5-9-9-9-9-9-|5-5-5-9-9-7-7-7-|5-5-5-9-9-9-9-9-|5-5-5-7-7-7-7-7-|
5|3-3-3-7-7-7-7-7-|3-3-3-7-7-5-5-5-|3-3-3-7-7-7-7-7-|3-3-3-5-5-5-5-5-|3-3-3-7-7-7-7-7-|3-3-3-7-7-5-5-5-|3-3-3-7-7-7-7-7-|3-3-3-5-5-5-5-5-|
6|----------------|----------------|----------------|----------------|----------------|----------------|----------------|----------------|
  (Mute - - - - - - - - - - - - - - - - - - - - - - - - - - - - - - - - - - - - - - - - - - - - - - - - - - - - - - - - - - - - - - - - -)

  C     Em         C     Em  D      C     Em         C     D          C     Em         C     Em  D      C     Em         C     D
1|----------------|----------------|----------------|----------------|----------------|----------------|----------------|----------------|----------------|--------|
2|----------------|----------------|----------------|----------------|----------------|----------------|----------------|----------------|----------------|--------|
3|----------------|----------------|----------------|----------------|----------------|----------------|----------------|----------------|----------------|--------|
4|5-5-5-9-9-9-9-9-|5-5-5-9-9-7-7-7-|5-5-5-9-9-9-9-9-|5-5-5-7-7-7-7-7-|5-5-5-9-9-9-9-9-|5-5-5-9-9-7-7-7-|5-5-5-9-9-9-9-9-|5-5-5-7---------|----------------|--------|
5|3-3-3-7-7-7-7-7-|3-3-3-7-7-5-5-5-|3-3-3-7-7-7-7-7-|3-3-3-5-5-5-5-5-|3-3-3-7-7-7-7-7-|3-3-3-7-7-5-5-5-|3-3-3-7-7-7-7-7-|3-3-3-5---------|----------------|--------|
6|----------------|----------------|----------------|----------------|----------------|----------------|----------------|----------------|----------------|--------|
  Mute - - - - - - - - - - - - - - - - - - - - - - - - - - - - - - - - - - - - - - - - - - - - - - - - - - - - - - - - - - - -)                            2/4

サビまでこのリフの繰り返しです。簡単です。シンプルです。
シンプルすぎるがゆえに、どう演奏表現するかが肝になるのですが、まああまり気にせず気持ちよく弾きましょう。
基本的にはブリッジミュートで抑え気味に弾きますが、コツとしてはピッキングの力も弱めでありながらハギレよくもしたいので、素早くソフトに弦を2本同時に鳴らすします。
ラーメンにコショウを入れるとき、入れすぎないように力加減しつつ、ちょうどよくパッとふりかかるようにスナップ効かせてコショウの瓶を振る、そんなイメージ。

サビ前くらいになったら、ちょっとづつ力を入れてアタックを強くしていって最後のDをジャーンってするときはコショウの蓋が外れてラーメンにドバーッてかかってもいいです。

サビ 1回目

  Em        G      Am    C   D      Em        G      Am    C   D      Em        G      Am    C   D      Em        G      Am    C   D
1|----------------|----------------|----------------|----------------|----------------|----------------|----------------|----------------|----------------|
2|----------------|----------------|----------------|----------------|----------------|----------------|----------------|----------------|----------------|
3|9-9-9-----------|------5---7-7---|9-9-9-----------|------5---7-7---|9-9-9-----------|------5---7-7---|9-9-9-----------|------5---7-7---|----------------|
4|9-9-9-----5-5---|7-7---5---7-7---|9-9-9-----5-5---|7-7---5---7-7---|9-9-9-----5-5---|7-7---5---7-7---|9-9-9-----5-5---|7-7---5---7-7---|----------------|
5|7-7-7-----5-5---|7-7---3---5-5---|7-7-7-----5-5---|7-7---3---5-5---|7-7-7-----5-5---|7-7---3---5-5---|7-7-7-----5-5---|7-7---3---5-5---|----------------|
6|----------3-3---|5-5-------------|----------3-3---|5-5-------------|----------3-3---|5-5-------------|----------3-3---|5-5-------------|----------------|

イントロと一緒なのでとくになにもないですが、やはりリズムは丁寧に刻みましょう。
ベースのリフやドラムのリズムをしっかり聴きながら、打楽器を演奏しているようなイメージでもいいとおもいます。
一緒に歌いながら弾いても楽しいです。

Aメロ 2回目

  C     Em         C     Em  D      C     Em         C     D          C     Em         C     Em  D      C     Em         C     D
1|----------------|----------------|----------------|----------------|----------------|----------------|----------------|----------------|
2|----------------|----------------|----------------|----------------|----------------|----------------|----------------|----------------|
3|----------------|----------------|----------------|----------------|----------------|----------------|----------------|----------------|
4|5-5-5-9-9-9-9-9-|5-5-5-9-9-7-7-7-|5-5-5-9-9-9-9-9-|5-5-5-7-7-7-7-7-|5-5-5-9-9-9-9-9-|5-5-5-9-9-7-7-7-|5-5-5-9-9-9-9-9-|5-5-5-7-7-7-7-7-|
5|3-3-3-7-7-7-7-7-|3-3-3-7-7-5-5-5-|3-3-3-7-7-7-7-7-|3-3-3-5-5-5-5-5-|3-3-3-7-7-7-7-7-|3-3-3-7-7-5-5-5-|3-3-3-7-7-7-7-7-|3-3-3-5-5-5-5-5-|
6|----------------|----------------|----------------|----------------|----------------|----------------|----------------|----------------|
  (Mute - - - - - - - - - - - - - - - - - - - - - - - - - - - - - - - - - - - - - - - - - - - - - - - - - - - - - - - - - - - - - - - - -)

  C     Em         C     Em  D      C     Em         C     D          C     Em         C     Em  D      C     Em         C     D
1|----------------|----------------|----------------|----------------|----------------|----------------|----------------|----------------|----------------|--------|
2|----------------|----------------|----------------|----------------|----------------|----------------|----------------|----------------|----------------|--------|
3|----------------|----------------|----------------|----------------|----------------|----------------|----------------|----------------|----------------|--------|
4|5-5-5-9-9-9-9-9-|5-5-5-9-9-7-7-7-|5-5-5-9-9-9-9-9-|5-5-5-7-7-7-7-7-|5-5-5-9-9-9-9-9-|5-5-5-9-9-7-7-7-|5-5-5-9-9-9-9-9-|5-5-5-7---------|----------------|--------|
5|3-3-3-7-7-7-7-7-|3-3-3-7-7-5-5-5-|3-3-3-7-7-7-7-7-|3-3-3-5-5-5-5-5-|3-3-3-7-7-7-7-7-|3-3-3-7-7-5-5-5-|3-3-3-7-7-7-7-7-|3-3-3-5---------|----------------|--------|
6|----------------|----------------|----------------|----------------|----------------|----------------|----------------|----------------|----------------|--------|
                                                                                                                                                           2/4

1回目と基本的には同じですが、途中でミュートを外してみてもいいかもしれませんね!

サビ 2回目

  Em        G      Am    C   D      Em        G      Am    C   D      Em        G      Am    C   D      Em        G      Am    C   D
1|----------------|----------------|----------------|----------------|----------------|----------------|----------------|----------------|
2|----------------|----------------|----------------|----------------|----------------|----------------|----------------|----------------|
3|9-9-9-----------|------5---7-7---|9-9-9-----------|------5---7-7---|9-9-9-----------|------5---7-7---|9-9-9-----------|------5---7-7---|
4|9-9-9-----5-5---|7-7---5---7-7---|9-9-9-----5-5---|7-7---5---7-7---|9-9-9-----5-5---|7-7---5---7-7---|9-9-9-----5-5---|7-7---5---7-7---|
5|7-7-7-----5-5---|7-7---3---5-5---|7-7-7-----5-5---|7-7---3---5-5---|7-7-7-----5-5---|7-7---3---5-5---|7-7-7-----5-5---|7-7---3---5-5---|
6|----------3-3---|5-5-------------|----------3-3---|5-5-------------|----------3-3---|5-5-------------|----------3-3---|5-5-------------|

  Em        G      Am    C   D      Em        G      Am    C   D      Em        G      Am    C   D      Em        G      Am    C   D  Em                   D
1|----------------|----------------|----------------|----------------|----------------|----------------|----------------|----------------|----------------|----------------|
2|----------------|----------------|----------------|----------------|----------------|----------------|----------------|----------------|----------------|----------------|
3|9-9-9-----------|------5---7-7---|9-9-9-----------|------5---7-7---|9-9-9-----------|------5---7-7---|9-9-9-----------|------5---7-7-9-|9---------------|7---------------|
4|9-9-9-----5-5---|7-7---5---7-7---|9-9-9-----5-5---|7-7---5---7-7---|9-9-9-----5-5---|7-7---5---7-7---|9-9-9-----5-5---|7-7---5---7-7-9-|9---------------|7---------------|
5|7-7-7-----5-5---|7-7---3---5-5---|7-7-7-----5-5---|7-7---3---5-5---|7-7-7-----5-5---|7-7---3---5-5---|7-7-7-----5-5---|7-7---3---5-5-7-|7---------------|5---------------|
6|----------3-3---|5-5-------------|----------3-3---|5-5-------------|----------3-3---|5-5-------------|----------3-3---|5-5-------------|----------------|----------------|

2回目はサビを2回繰り返しになります。
ギターだけ聴いていると今どこを弾いているのか見失うかもしれないので、歌もしっかりききましょうね。
2回目の終わりでは、ブリッジとしてDからEmに移動してシンコペーション1小節→Dを1小節、そしてギターソロパートに移行します。
ソロパートのバッキングもサビと同じコード進行なので同じように演奏すればOK

ギターソロのバッキング

  Em        G      Am    C   D      Em        G      Am    C   D      Em        G      Am    C   D      Em        G      Am    C   D
1|----------------|----------------|----------------|----------------|----------------|----------------|----------------|----------------|
2|----------------|----------------|----------------|----------------|----------------|----------------|----------------|----------------|
3|9-9-9-----------|------5---7-7---|9-9-9-----------|------5---7-7---|9-9-9-----------|------5---7-7---|9-9-9-----------|------5---7-7---|
4|9-9-9-----5-5---|7-7---5---7-7---|9-9-9-----5-5---|7-7---5---7-7---|9-9-9-----5-5---|7-7---5---7-7---|9-9-9-----5-5---|7-7---5---7-7---|
5|7-7-7-----5-5---|7-7---3---5-5---|7-7-7-----5-5---|7-7---3---5-5---|7-7-7-----5-5---|7-7---3---5-5---|7-7-7-----5-5---|7-7---3---5-5---|
6|----------3-3---|5-5-------------|----------3-3---|5-5-------------|----------3-3---|5-5-------------|----------3-3---|5-5-------------|

  Em        G      Am    C   D      Em        G      Am    C   D      Em        G      Am    C   D      Em        G      Am    C   D  Em
1|----------------|----------------|----------------|----------------|----------------|----------------|----------------|----------------|----------------|
2|----------------|----------------|----------------|----------------|----------------|----------------|----------------|----------------|----------------|
3|9-9-9-----------|------5---7-7---|9-9-9-----------|------5---7-7---|9-9-9-----------|------5---7-7---|9-9-9-----------|------5---7-7-9-|9---------------|
4|9-9-9-----5-5---|7-7---5---7-7---|9-9-9-----5-5---|7-7---5---7-7---|9-9-9-----5-5---|7-7---5---7-7---|9-9-9-----5-5---|7-7---5---7-7-9-|9---------------|
5|7-7-7-----5-5---|7-7---3---5-5---|7-7-7-----5-5---|7-7---3---5-5---|7-7-7-----5-5---|7-7---3---5-5---|7-7-7-----5-5---|7-7---3---5-5-7-|7---------------|
6|----------3-3---|5-5-------------|----------3-3---|5-5-------------|----------3-3---|5-5-------------|----------3-3---|5-5-------------|----------------|

ソロパートのバッキングもサビと同じコード進行なので同じように演奏すればOK

Aメロ 3回目

  C     Em         C     Em  D      C     Em         C     D          C     Em         C     Em  D      C     Em         C     D
1|----------------|----------------|----------------|----------------|----------------|----------------|----------------|----------------|
2|----------------|----------------|----------------|----------------|----------------|----------------|----------------|----------------|
3|----------------|----------------|----------------|----------------|----------------|----------------|----------------|----------------|
4|----------------|----------------|----------------|----------------|----------------|----------------|----------------|---------7---7--|
5|----------------|----------------|----------------|----------------|----------------|----------------|----------------|---------5---5--|
6|----------------|----------------|----------------|----------------|----------------|----------------|----------------|----------------|

  C     Em         C     Em  D      C     Em         C     D          C     Em         C     Em  D      C     Em         C     D
1|----------------|----------------|----------------|----------------|----------------|----------------|----------------|----------------|----------------|--------|
2|----------------|----------------|----------------|----------------|----------------|----------------|----------------|----------------|----------------|--------|
3|----------------|----------------|----------------|----------------|----------------|----------------|----------------|----------------|----------------|--------|
4|5-5-5-9-9-9-9-9-|5-5-5-9-9-7-7-7-|5-5-5-9-9-9-9-9-|5-5-5-7-7-7-7-7-|5-5-5-9-9-9-9-9-|5-5-5-9-9-7-7-7-|5-5-5-9-9-9-9-9-|5-5-5-7---------|----------------|--------|
5|3-3-3-7-7-7-7-7-|3-3-3-7-7-5-5-5-|3-3-3-7-7-7-7-7-|3-3-3-5-5-5-5-5-|3-3-3-7-7-7-7-7-|3-3-3-7-7-5-5-5-|3-3-3-7-7-7-7-7-|3-3-3-5---------|----------------|--------|
6|----------------|----------------|----------------|----------------|----------------|----------------|----------------|----------------|----------------|--------|
                                                                                                                                                           2/4

ギターソロが終わると静寂の時間、ギターは少しお休みです。じっとしてましょう。
8小節目の3拍目裏からジャッジャーって入りますが、難しかったらなくてもいいです。

サビ 3回目

  Em        G      Am    C   D      Em        G      Am    C   D      Em        G      Am    C   D      Em        G      Am    C   D
1|----------------|----------------|----------------|----------------|----------------|----------------|----------------|----------------|
2|----------------|----------------|----------------|----------------|----------------|----------------|----------------|----------------|
3|9-9-9-----------|------5---7-7---|9-9-9-----------|------5---7-7---|9-9-9-----------|------5---7-7---|9-9-9-----------|------5---7-7---|
4|9-9-9-----5-5---|7-7---5---7-7---|9-9-9-----5-5---|7-7---5---7-7---|9-9-9-----5-5---|7-7---5---7-7---|9-9-9-----5-5---|7-7---5---7-7---|
5|7-7-7-----5-5---|7-7---3---5-5---|7-7-7-----5-5---|7-7---3---5-5---|7-7-7-----5-5---|7-7---3---5-5---|7-7-7-----5-5---|7-7---3---5-5---|
6|----------3-3---|5-5-------------|----------3-3---|5-5-------------|----------3-3---|5-5-------------|----------3-3---|5-5-------------|

  Em        G      Am    C   D      Em        G      Am    C   D      Em        G      Am    C   D      Em        G      Am    C   D  Em
1|----------------|----------------|----------------|----------------|----------------|----------------|----------------|----------------|
2|----------------|----------------|----------------|----------------|----------------|----------------|----------------|----------------|
3|9-9-9-----------|------5---7-7---|9-9-9-----------|------5---7-7---|9-9-9-----------|------5---7-7---|9-9-9-----------|------5---7-7-9-|
4|9-9-9-----5-5---|7-7---5---7-7---|9-9-9-----5-5---|7-7---5---7-7---|9-9-9-----5-5---|7-7---5---7-7---|9-9-9-----5-5---|7-7---5---7-7-9-|
5|7-7-7-----5-5---|7-7---3---5-5---|7-7-7-----5-5---|7-7---3---5-5---|7-7-7-----5-5---|7-7---3---5-5---|7-7-7-----5-5---|7-7---3---5-5-7-|
6|----------3-3---|5-5-------------|----------3-3---|5-5-------------|----------3-3---|5-5-------------|----------3-3---|5-5-------------|

  Em
1|----------------|
2|----------------|
3|9-9-9-----------|
4|9-9-9-----------|
5|7-7-7-----------|
6|----------------|

ラストのサビを繰り返し、Here I am Rock you like a hurricane と一緒に歌いながら弾いて盛り上がって大団円を迎えましょう。