Outlaw Guitar Lesson 猫でも弾ける?外道ギター練習法

Lesson 3

ひたすらリフを弾きまくれ

1曲まるまる完コピしたい!でも難しい!
好きなあの曲の大好きなあのリフばっかり弾き続けるだけでも
楽しく効果的な練習になる

ハードロックはリフが命

ブラジルのMEGADETHファンはコンサートで、ギターリフに歌詞を付けて歌っていました。
ハードロックやヘビーメタルではそれほどまでにギターリフというものが楽曲のなかで重要かつキャッチーなものということですわ。
いろんな名曲のリフだけを練習するだけでも基本的な技術は身につくし、よくある楽しくもない練習用フレーズより、楽しく反復練習できるおすすめリフを紹介します。
(コードはパワーコードにしたりして簡単に弾けるようアレンジしたりしてます)

ダウンピッキングが身につくリフ

Communication Breakdown / Led Zepperin風

1|----------------|----------------|----------------|----------------|
2|----------------|----------------|----------------|----------------|
3|----------------|----------------|----------------|----------------|
4|----------------|--7---------7---|----------------|--7---------7---|
5|----------------|--5-----7---5---|----------------|--5-----7---5---|
6|0-0-0-0-0-0-0-0-|0-------5-------|0-0-0-0-0-0-0-0-|0-------5-------|

全てダウンピッキングでごりごり弾きます。軽くブリッジミュート(手首あたりをブリッジに置いて弦に少しだけ触れさせてちょっとだけミュート)するとかっこいいですが、慣れないうちはひたすら気にせずひたすらダウンピッキングに徹しましょう。
パワーコード箇所も、できないうちは以下のような感じでもOK

1|----------------|----------------|----------------|----------------|
2|----------------|----------------|----------------|----------------|
3|----------------|----------------|----------------|----------------|
4|----------------|----------------|----------------|----------------|
5|----------------|--5---------5---|----------------|--5---------5---|
6|0-0-0-0-0-0-0-0-|0-------5-------|0-0-0-0-0-0-0-0-|0-------5-------|

恋のマジックポーション / すかんち 風

1|----------------|----------------|----------------|------------------|
2|----------------|----------------|----------------|------------------|
3|----------------|----------------|----------------|------------------|
4|----------------|----------------|----------------|------------------|
5|----------------|----------------|----------------|------------------|
6|0-0-2-0-0-3-0-0-|4-0-0-5-0-0-6---|0-0-7-0-0-8-0-0-|9-0-0-10-0-0-11---|

6弦だけで1フレットずつ上昇する、指1本で弾けるリフ。ローリー寺西が歌いながら演奏するのですかんちの曲全体通してそんな難しいことはしていないけど、ロックンロールでキャッチーな曲が多いのでとっつきやすいかも。
全体的に軽くブリッジミュートで弾くとザクザクしてかっこいいけど、ダウンピッキングを鍛えるつもりで、ミュートについてはあまり気にしなくてもいいと思います。

Armed and Ready / MSG 風

1|----------------|----------------|----------------|----------------|
2|----------------|----------------|----------------|----------------|
3|----------------|----------------|----------------|----------------|
4|----9-----9-----|7-----2-------2-|----9-----9-----|7-----2---------|
5|----7-----7-----|5-----0---3-4---|----7-----7-----|5-----0---------|
6|0-0---0-0---0-0-|--0-0-----------|0-0---0-0---0-0-|--0-0-----3-2-0-|

ド定番なリフパターンです。6弦をブリッジミュートでズンズン弾きながら、5弦4弦のパワーコードで刻みましょう。
2小節目と4小節目、単音で弾く箇所はかっこいいから是非練習。
2小節目の3~4拍目部分、 5弦3フレットは中指で押さえダウンピッキング、次の4フレットは薬指でハンマリング(指先で叩くように押弦して音を出す)だとかっこいい。
ディストーション効かせてたら普通に押さえるだけでそれなりに音はでるので、ひょいと押さえればオッケーです。

Crazy Doctor / Loudness 風

1|----------------|----------------|----------------|----------------|----------------|----------------|----------------|----------------|
2|----------------|----------------|----------------|----------------|----------------|----------------|----------------|----------------|
3|----------------|----------------|----------------|----------------|--------4-------|--------4-------|----------------|----------------|
4|----9-----9-----|9-------5-4-----|----7-----7-----|7-------5-4-----|----5-------5---|----5-------5---|----9-----9-----|9-------5-------|
5|----7-----7-----|7-----------7-5-|--5-5-5-5-5-5-5-|5-5-5-5-----5-4-|--------------3-|----------------|----7-----7-----|7---9---3---5---|
6|0-0---0-0---0-0-|--0-0-0---------|----------------|----------------|----------------|----------------|0-0---0-0---0-0-|----7-------3---|

いきなり難易度上がった用な感じですが、これもよくある形で、コード進行としては、Em → D → C#dim → CM7 という、コードの一番低い音が下降していくクリシェというパターンです。
難しく感じるのはテンポが速いから。ゆっくり弾けばどうってことないフレーズなので、まずはゆっくりめで練習して慣れたらめっさ速く弾いてみましょう。
最後のパワーコードの横移動が遠いのが難所かも?慣れないうちは勘で「これくらい!」って感じで移動して、はずれてもOK!
そのうちあたるようになるから。

オルタネイトピッキングが身につくリフ

Death Alley Driver / Rainbow風

1|----------------|----------------|----------------|----------------|----------------|----------------|-----------------|---------------|
2|----------------|----------------|----------------|----------------|----------------|----------------|-----------------|---------------|
3|----------------|----------------|----------------|----------------|----------------|--------------5-|------4----------|---------------|
4|----------------|----------------|----------------|----------------|----------------|--------------5-|------4-------7--|-----5---------|
5|----------------|----------------|----------------|----------------|----------------|----------------|--------------7--|-----5---------|
6|3-5-5-5-5-5-5-5-|5-5-5-5-5-5-5-5-|5-5-5-5-5-5-5-5-|5-5-5-5-5-5-5-5-|3s5-5-5-5-5-5-5-|5-5-5-5-5-5-X---|----X-------X----|---X-----------|
    s D U D U D U ...

バイクで逃げるジョー・リン・ターナーがリッチー・ブラックモアが車で追いかけるあのミュージックビデオが大好きです。
BPMは速いですが8分音符を6弦はアップピッキング・ダウンピッキングを繰り返すオルタネイトピッキングで、Dはダウン・Uアップで弾きます。
sって書いてるところは3フレットから5フレットへスライドさせてね。
リッチーっぽく親指で押さえてますが、べつにどの指でもいいです。

Crazy Train/ Ozzy Osbourne風

1|--------------------------------|--------------------------------|
2|--------------------------------|--------------------------------|
3|--------2-----------9-----------|7-----------2-------2-----------|
4|--------2-----------9-----------|7-----------2-------2-----------|
5|0-0-0-0-----0-0-0-0-----0-0-0-0-|----0-0-0-0---------------------|
6|--------------------------------|------------------------4---0---|

だいぶと簡単アレンジにしてますが、16分音符のズコズコオルタネイトピッキングがやっぱり気持ちいいですよね。
5弦0フレットはブリッジミュートかましましょう。
ロック・メタルギタリストのほとんどが誰もが弾いたことあるフレーズでしょうね。
実際は以下のような感じで弾く人が多いです。できたらチャレンジしてみて。最後の p はプリングオフです。

1|--------------------------------|--------------------------------|--------------------------------|--------------------------------|
2|--------------------5-----------|3-------------------------------|--------------------5-----------|3-------------------------------|
3|--------2-----------4-----------|2-----------2-------2-----------|--------2-----------4-----------|2-----------2-------4p2p0-------|
4|--------2-----------6-----------|4-----------2-------2-----------|--------2-----------6-----------|4-----------2----------4p2p0----|
5|0-0-0-0-----0-0-0-0-----0-0-0-0-|----0-0-0-0---------------------|0-0-0-0-----0-0-0-0-----0-0-0-0-|----0-0-0-0---------------4p2p0-|
6|--------------------------------|------------------------4---0---|--------------------------------|--------------------------------|
リフはさらに追加予定です。追加の際はトップページでお知らせいたします。